TabNabber Tablature   Musician Supported
  Piano, Guitar + more Tablature
Espa˝ol English
Franšais Русский
Artist:
# A B C D E F G H I J K L M N O P Q R S T U V W X Y Z

Discussion Forums

Requests, Links, Advice and so much more!     [There are 12021 users currently online]
  [Advanced]
Forums > Website Related > Guitar-Piano Converter

10 years ago
Guitar-Piano Converter? 8253 views  
5
replies
Ryan
[Guest]
Is it just me, or does this not work? Anytime i insert guitar tabs, the other box just directly copies the guitar tab...

Am I doing something wrong, is there any way I can get this to work? Thanks!

 
Reply

10 years ago
Re: Guitar-Piano Converter?
Tunder250


Tab Guru
[Tab Guru]

135 Posts
erase the:

T|
A|
B|
N|
A|
B|
B|
E|
R|
.|
C|
O|
M|

or you did it good, if converted. could you paste a example?

 
Reply

10 years ago
Re: Guitar-Piano Converter?
Tunder250


Tab Guru
[Tab Guru]

135 Posts
yup, i tested with that bar, without the bar does it work. :D
 
Reply

10 years ago
Re: Guitar-Piano Converter?
ryan
[Guest]
I did this for example, exactly

|-------------------------------|-------------------------------|
|--------3---------------3------|-------------------------------|
|----------2---------------0----|--------0--0----------------2/0|
|--0--0------0---------------0--|-------------------0-2/0-------|
|--------------3(0)3------------|--------------0/2--------2-----|
|-------------------------------|-3(0)3-------------------------|


and it just pasted the exact same thing...

 
Reply

10 years ago
Re: Guitar-Piano Converter?
BA


Admin
[Admin]

343 Posts
Try this:

e|-------------------------------|-------------------------------|
b|--------3---------------3------|-------------------------------|
g|----------2---------------0----|--------0--0----------------2/0|
d|--0--0------0---------------0--|-------------------0-2/0-------|
a|--------------3(0)3------------|--------------0/2--------2-----|
e|-------------------------------|-3(0)3-------------------------|

(The converter isn't smart enough to know what the string names are, so you gotta tell it) Maybe some day we'll smarten it up.

 
Reply

10 years ago
Re: Guitar-Piano Converter?
Tunder250


Tab Guru
[Tab Guru]

135 Posts
DON'T FORGET WHAT I SAID!
 
Reply

The Disclaimer: We rarely monitor and have little to no control of the content posted here. View at your own risk.

Page Loaded in: 0.0625 seconds

 

 
TabNabber.com - User Supported     ----|---  Contact us  ---|--- Advertising ---|---  Privacy Policy ---|---  Terms of Use  ---|