TabNabber Tabs   Musician Supported
  Music Tabs
Espa˝ol English
Franšais Русский
Artist: # A B C D E F G H I J K L M N O P Q R S T U V W X Y Z
guitar

Guitar Tab, Chords



(3.3 from 7 votes)
17,462 Views, Last Update 10 years ago
by: Jarad
guest
[Guest]
e----------------------------------------------|
b------3---------3----------3---------3--------|
g--0-----0--2-------2--0-------0--2-----2------|
d----0---------0----------0---------0----------|
a----------------------------------------------|
e--3--------2----------3----------2------------|

e----------------------------------------------|
b-------3--------3----------1----------3-------|
g--0------0--0------0--0-------0--2------2-----|
d-----0--------0----------0----------0---------|
a--3---------2---------0-----------------------|
e---------------------------------2------------|

e----------------------------------------------|
b------3---------3----------3---------3--------|
g--0-----0--2-------2--0-------0--2-----2------|
d----0---------0----------0---------0----------|
a----------------------------------------------|
e--3--------2----------3----------2------------|

e----------------------------------------------|
b-------3--------3----------1----------3-------|
g--0------0--0------0--0-------0--2------2-----|
d-----0--------0----------0----------0---------|
a--3---------2---------0-----------------------|
e---------------------------------2------------|

e----------------------------------------------|
b------3---------3----------3---------3--------|
g--0-----0--2-------2--0-------0--2-----2------|
d----0---------0----------0---------0----------|
a----------------------------------------------|
e--3--------2----------3----------2------------|

e----------------------------------------------|
b-------3--------3----------1----------3-------|
g--0------0--0------0--0-------0--2------2-----|
d-----0--------0----------0----------0---------|
a--3---------2---------0-----------------------|
e---------------------------------2------------|

e----------------------------------------------|
b------3---------3----------3---------3--------|
g--0-----0--2-------2--0-------0--2-----2------|
d----0---------0----------0---------0----------|
a----------------------------------------------|
e--3--------2----------3----------2------------|

e----------------------------------------------|
b-------3--------3----------1----------3-------|
g--0------0--0------0--0-------0--2------2-----|
d-----0--------0----------0----------0---------|
a--3---------2---------0-----------------------|
e---------------------------------2------------|

e/-----------------------------------------------|
b/------3---------3---------1-----1----2---------|
g/--0------0--0-----0--0-------0-----0-----------|
d/----0---------0---------0------0-------0-------|
a/--3---------2--------0-------------------------|
e/-----------------------------------------------|

e/--3---3---3---2---3---3---3---2---x-x-x---3-x-3-----|
b/--3---3---3---3---3---3---3---3---3-x-3---3-x-3-----|
g/--0---0---0---2---0---0---0---2---0-x-0---2-x-2-----|
d/--2---0---2---0---2---0---2---0---2-x-2---0-x-0-----|
a/--3---2---2---0---3---2---2---0---3-x-3---0-x-0-----|
e/------3---0-----------3---0-------------------------|

e----------------------------------------------|
b------3---------3----------3---------3--------|
g--0-----0--2-------2--0-------0--2-----2------|
d----0---------0----------0---------0----------|
a----------------------------------------------|
e--3--------2----------3----------2------------|

e----------------------------------------------|
b-------3--------3----------1----------3-------|
g--0------0--0------0--0-------0--2------2-----|
d-----0--------0----------0----------0---------|
a--3---------2---------0-----------------------|
e---------------------------------2------------|

e----------------------------------------------|
b------3---------3----------3---------3--------|
g--0-----0--2-------2--0-------0--2-----2------|
d----0---------0----------0---------0----------|
a----------------------------------------------|
e--3--------2----------3----------2------------|

e----------------------------------------------|
b-------3--------3----------1----------3-------|
g--0------0--0------0--0-------0--2------2-----|
d-----0--------0----------0----------0---------|
a--3---------2---------0-----------------------|
e---------------------------------2------------|

e----------------------------------------------|
b------3---------3----------3---------3--------|
g--0-----0--2-------2--0-------0--2-----2------|
d----0---------0----------0---------0----------|
a----------------------------------------------|
e--3--------2----------3----------2------------|

e----------------------------------------------|
b-------3--------3----------1----------3-------|
g--0------0--0------0--0-------0--2------2-----|
d-----0--------0----------0----------0---------|
a--3---------2---------0-----------------------|
e---------------------------------2------------|

e----------------------------------------------|
b------3---------3----------3---------3--------|
g--0-----0--2-------2--0-------0--2-----2------|
d----0---------0----------0---------0----------|
a----------------------------------------------|
e--3--------2----------3----------2------------|

e----------------------------------------------|
b-------3--------3----------1----------3-------|
g--0------0--0------0--0-------0--2------2-----|
d-----0--------0----------0----------0---------|
a--3---------2---------0-----------------------|
e---------------------------------2------------|

e/-----------------------------------------------|
b/------3---------3---------1-----1----2---------|
g/--0------0--0-----0--0-------0-----0-----------|
d/----0---------0---------0------0-------0-------|
a/--3---------2--------0-------------------------|
e/-----------------------------------------------|

e----------------------------------------------|
b------3---------3----------3---------3--------|
g--0-----0--2-------2--0-------0--2-----2------|
d----0---------0----------0---------0----------|
a----------------------------------------------|
e--3--------2----------3----------2------------|

e----------------------------------------------|
b-------3--------3----------1----------3-------|
g--0------0--0------0--0-------0--2------2-----|
d-----0--------0----------0----------0---------|
a--3---------2---------0-----------------------|
e---------------------------------2------------|

e/-----------------------------------------------|
b/------3---------3---------1-----1----2---------|
g/--0------0--0-----0--0-------0-----0-----------|
d/----0---------0---------0------0-------0-------|
a/--3---------2--------0-------------------------|
e/-----------------------------------------------|

e/--3---3---3---2---3---3---3---2---x-x-x---3-x-3-----|
b/--3---3---3---3---3---3---3---3---3-x-3---3-x-3-----|
g/--0---0---0---2---0---0---0---2---0-x-0---2-x-2-----|
d/--2---0---2---0---2---0---2---0---2-x-2---0-x-0-----|
a/--3---2---2---0---3---2---2---0---3-x-3---0-x-0-----|
e/------3---0-----------3---0-------------------------|


Login to Edit
Edit
YouTube
Video
View Sheet Music
Sheet
Music
Print
Speed:
Play Intro (login for the full song)
Play
Intro
Sustain:
Download midi (intro) ...

7 Votes
5 star: 57%  (4)
4 star:  (0)
3 star:  (0)
2 star:  (0)
1 star: 43%  (3)
0 star:  (0)
 Rate:
5 star
4 star
3 star
2 star
1 star
 

Comments (0)
 

No comments yet...

Comment on this tab   -   Unhelpful comments are exterminated.
  Your Guest Name:
      [Member Login]
  Comments:
 

Don't understand the tab?
See "How to Read Guitar Tabs".
Supported tags:
<i>italics</i>
<b>bold</b>
<u>underline</u>
<tab>tab lines</tab>
  Are you a spam robot?

If not, solve the equation:




[375 TabNabbers online]
©2020 TabNabber.com - Musician Supported Contact us Advertising Merchandise Privacy Policy Terms of Use facebook Twitter