TabNabber Tabs   Musician Supported
  Music Tabs
Espa˝ol English
Franšais Русский
Artist: # A B C D E F G H I J K L M N O P Q R S T U V W X Y Z
guitar

Guitar Tab, Chords



(0 from 0 votes)
6,859 Views, Last Update 8 years ago
by: El_ReY_link
guest

New Tabber
[New Recruit]
T|  C                              F
E------------8--7---------1------0--13--12---------|
B-------10-5--------8------1----1------------13--10|
G-----5------9--7-----7---2--2------14--12------10-|
D---5--------------9------3-----------------14-----|
A-3-------------------8---3------------------------|
E-------------------------1------------------------|

    C
E------------8--7-----10-12-13-12-10----10-|
B-------3-5--------8-----------------13----|
G-----5------9--7--------------------------|
D---5--------------9-----------------------|
A-3----------------------------------------|
E------------------------------------------|


Login to Edit
Edit
YouTube
Video
View Sheet Music
Sheet
Music
Print
Speed:
Play Intro (login for the full song)
Play
Intro
Sustain:
Download midi (intro) ...

 Rate:
5 star
4 star
3 star
2 star
1 star
 

Comments (1)
 

BA


Admin
[Admin]

8 years ago
fyi, i switched this to a guitar tab for you so you can hear it in the midi

Reply

Comment on this tab   -   Unhelpful comments are exterminated.
  Your Guest Name:
      [Member Login]
  Comments:
 

Don't understand the tab?
See "How to Read Guitar Tabs".
Supported tags:
<i>italics</i>
<b>bold</b>
<u>underline</u>
<tab>tab lines</tab>
  Are you a spam robot?

If not, solve the equation:




[152 TabNabbers online]
©2020 TabNabber.com - Musician Supported Contact us Advertising Merchandise Privacy Policy Terms of Use facebook Twitter