TabNabber Tabs   Musician Supported
  Music Tabs
Espa˝ol English
Franšais Русский
Artist: # A B C D E F G H I J K L M N O P Q R S T U V W X Y Z
guitar

Guitar Tab, Chords



(0 from 0 votes)
4,602 Views, Last Update 6 years ago
by: poo
guest
[Guest]
|------------------------|
B|------------------------| 
G|------------------------|
D|999-777-555-44----------|
A|777-555-333-22----------| 2 times
E|---------------3-2-0----|

Verse                                  Piece between verses

e|----------23----3------------| e |----------------|
B|----2-----33----0-----2------| B |----------------|
G|----2-----22----0-----2------| G |----------------|
D|----2-----00-2--0-----2------| D |----------------|
A|----0--------2--2-----0------| A |--------3-0-----|
E|3bd----------0--3-3bd--------| E |-0-3-0------3-0-|

Pre-Chorus

e|----------------| Slight Palm-mute at the E-Chord (x7999x)
B|77-77-7-9999999-|
G|77-77-7-9999999-|
D|77-77-7-9999999-|
A|55-55-5-7777777-|
E|----------------|


Chorus

First Part
e|3-3--2-2-------------| 
B|3-3--3-3-2-2-----2-2-| 
G|0-0--2-2-2-2-----2-2-|
D|0-0--0-0-2-2-----2-2-|
A|0-0------0-0-----0-0-|
E|3-3----------3bd-----| 2 times

Second Part
e|----333-222--|
B|----333-3332-|
G|555-000-2222-|
D|555-000-0002-|
A|333-000----0-|
E|----333------|

Third Part

e|---------------| And then |--------------|
B|---------------|          |--------------|
G|---------------|          |--------------|
D|33333333-55555-|          |--------------|
A|33333333-55555-|          |------3-0-----|
E|11111111-33333-|          |0-3-0-----3-0-|

Verse

Pre Chorus

Chorus

Solo (listen to it to get the right timing)
e|----------------------------------------------------------------------|
B|--------------------8b10-8-5---5----------13--------------------------|
G|5b7-7-5---5------------------7---7-5---5-----14-12----12--14-12----12-|
D|--------7---7-5---5------------------7-------------14-----------14----|
A|----------------7-----------------------------------------------------|
E|----------------------------------------------------------------------|

(the 17 is still 15b17, you have to hit it once more at the top)

e|---------17-|
B|15b17-17----|
G|------------| 10 times
D|------------|
A|------------|
E|------------|

e|17-15-------17-20b22r20-17-------------------------------------------|
B|------17-15----------------20b22r20-17-------------------------------|
G|---------------------------------------19b21r19-17-------------------|
D|---------------------------------------------------19----------------|
A|------------------------------------------------------15-17b19r17----|
E|------------------------------------------------------------------17-|

e|-------------------------------|
B|------------------------5------|
G|------5-----------------7b9----|
D|7-5-----7-5---5----------------|
A|----7-------7---5-3---3--------|
E|--------------------5-------X\-|
                              Pick Scrape


| h   hammer-on
| p   pull-off
| ~   vibrato
| +   harmonic
| x   Mute note
| b   Bend


Login to Edit
Edit
YouTube
Video
View Sheet Music
Sheet
Music
Print
Speed:
Play Intro (login for the full song)
Play
Intro
Sustain:
Download midi (intro) ...

 Rate:
5 star
4 star
3 star
2 star
1 star
 

Comments (0)
 

No comments yet...

Comment on this tab   -   Unhelpful comments are exterminated.
  Your Guest Name:
      [Member Login]
  Comments:
 

Don't understand the tab?
See "How to Read Guitar Tabs".
Supported tags:
<i>italics</i>
<b>bold</b>
<u>underline</u>
<tab>tab lines</tab>
  Are you a spam robot?

If not, solve the equation:




[739 TabNabbers online]
©2020 TabNabber.com - Musician Supported Contact us Advertising Merchandise Privacy Policy Terms of Use facebook Twitter