TabNabber Tabs   Musician Supported
  Music Tabs
Espa˝ol English
Franšais Русский
Artist: # A B C D E F G H I J K L M N O P Q R S T U V W X Y Z
electric guitar

Guitar Tab, Chords



(0 from 0 votes)
4,700 Views, Last Update 6 years ago
by: suicidesilence
guest
[Guest]
S  S   S  S   S    S  S   S  S   S  S   S  S   S    S
D#||-----------------------------------------------------------|
A#||--(12)---(12)---(12)-(12)---(12)---(12)---(12)---(12)-(12)-|
F#||---15-----15-----15---15-----15-----15-----15-----15---15--|
C#||---14-----14-----14---14-----14-----14-----14-----14---14--|
G#||---13-----13-----13---13-----13-----13-----13-----13---13--|
D#||-----------------------------------------------------------|


    S  S   S  S   S    S  S   S  S   S  S   S  S   S    S    S
----------------------------------------------------------------|
--(12)---(12)---(12)-(12)---(12)---(12)---(12)---(12)-(12)-(12)-|
---15-----15-----15---15-----15-----15-----15-----15---15---15--|
---14-----14-----14---14-----14-----14-----14-----14---14---14--|
---13-----13-----13---13-----13-----13-----13-----13---13---13--|
----------------------------------------------------------------|


    S  S   S  S   S    S  S   S  S   S  S   S  S   S    S
-----------------------------------------------------------|
--(12)---(12)---(12)-(12)---(12)---(12)---(12)---(12)-(12)-|
---15-----15-----15---15-----15-----15-----15-----15---15--|
---14-----14-----14---14-----14-----14-----14-----14---14--|
---13-----13-----13---13-----13-----13-----13-----13---13--|
-----------------------------------------------------------|


    S  S   S  S   S    S  S   S  S   S  S   S  S   S    S    S
----------------------------------------------------------------|
--(12)---(12)---(12)-(12)---(12)---(12)---(12)---(12)-(12)-(12)-|
---15-----15-----15---15-----15-----15-----15-----15---15---15--|
---14-----14-----14---14-----14-----14-----14-----14---14---14--|
---13-----13-----13---13-----13-----13-----13-----13---13---13--|
----------------------------------------------------------------|


               |---3--|     |---3--|
  E  E  S S E  S   S  S S S S   S  S  S S
------------------------------------------|
------------------------------------------|
------------------------------------------|
-----9--9-7----8h-11p-8-------------------|
------------------------9---9h-12p-9------|
--0----------------------------------12-0-|


               |---3--|      |---3---|
  E  E  S S E  S   S  S S S  S   S   S  S
------------------------------------------|
------------------------------------------|
------------------------------------------|
-----9--9-7----8h-11p-8-----11h-14p-11----|
------------------------9--------------13-|
--L---------------------------------------|


    S  S   S  S   S    S  S   S  S   S  S   S  S   S    S
-----------------------------------------------------------|
--(12)---(12)---(12)-(12)---(12)---(12)---(12)---(12)-(12)-|
---15-----15-----15---15-----15-----15-----15-----15---15--|
---14-----14-----14---14-----14-----14-----14-----14---14--|
---13-----13-----13---13-----13-----13-----13-----13---13--|
-----------------------------------------------------------|


    S  S   S  S   S    S  S   S  S   S  S   S  S   S    S    S
----------------------------------------------------------------|
--(12)---(12)---(12)-(12)---(12)---(12)---(12)---(12)-(12)-(12)-|
---15-----15-----15---15-----15-----15-----15-----15---15---15--|
---14-----14-----14---14-----14-----14-----14-----14---14---14--|
---13-----13-----13---13-----13-----13-----13-----13---13---13--|
----------------------------------------------------------------|


               |---3--|     |---3--|
  E  E  S S E  S   S  S S S S   S  S  S S
------------------------------------------|
------------------------------------------|
------------------------------------------|
-----9--9-7----8h-11p-8-------------------|
------------------------9---9h-12p-9------|
--0----------------------------------12-0-|


               |---3--|      |---3---|
  E  E  S S E  S   S  S S S  S   S   S  S S
--------------------------------------------|
--------------------------------------------|
--------------------------------------------|
-----9--9-7----8h-11p-8-----11h-14p-11------|
------------------------9--------------13---|
--L---------------------------------------0-|


               |---3--|     |---3--|
  E  E  S S E  S   S  S S S S   S  S  S S
------------------------------------------|
------------------------------------------|
------------------------------------------|
-----9--9-7----8h-11p-8-------------------|
------------------------9---9h-12p-9------|
--L----------------------------------12-0-|


               |---3--|      |---3---|
  E  E  S S E  S   S  S S S  S   S   S  S    E  S S H.
------------------------------------------|----------------------|
------------------------------------------|----------------------|
------------------------------------------|----------------------|
-----9--9-7----8h-11p-8-----11h-14p-11----|----------------------|
------------------------9--------------13-|--2--2-2--------------|
--L---------------------------------------|--0--0-0--------------|


  E  S S H.              E  S  E  S E  E  S S S S S S
----------------------|-------------------------------|
----------------------|-------------------------------|
----------------------|-------------------------------|
----------------------|-------------------------------|
--2--2-2--------------|-----5s-7----------------------|
--0--0-0--------------|--0--------0-3--5--6-5-3-5-6-7-|


  E  S  E  S E  E  S S E  S S    E  S  E  S E  E  S S S S S S
------------------------------|-------------------------------|
------------------------------|-------------------------------|
------------------------------|-------------------------------|
------------------------------|-------------------------------|
-----5s-7--------------2--0---|-----5s-7----------------------|
--0--------0-3--5--3-0------3-|--0--------0-3--5--6-5-3-5-6-7-|


  E  S  E  S E  E  S S E  S S
------------------------------|
------------------------------|
------------------------------|
------------------------------|
-----5s-7--------------2--0---|
--0--------0-3--5--3-0------3-|


     PM PM PM   PM PM PM      PM PM PM   PM PM PM
     |--3--|    |--3--|       |--3--|    |--3--|
  E  S  S  S  S S  S  S  S E  S  S  S  S S  S  S  S
----------------------------------------------------|
----------------------------------------------------|
----------------------------------------------------|
--5------------------------5------------------------|
--5--2--2--2----2--2--2----5--2--2--2----2--2--2----|
--3--0--0--0----0--0--0----3--0--0--0----0--0--0----|


  E  S  E  S E  E  S S S S S S    E  S  E  S E  E  S S E  S S
-------------------------------|------------------------------|
-------------------------------|------------------------------|
-------------------------------|------------------------------|
-------------------------------|------------------------------|
-----5s-7----------------------|-----5s-7--------------2--0---|
--0--------0-3--5--6-5-3-5-6-7-|--0--------0-3--5--3-0------3-|


  E  S  E  S E  E  S S S S S S    E  S  E  S E  E  S S E  S S
-------------------------------|------------------------------|
-------------------------------|------------------------------|
-------------------------------|------------------------------|
-------------------------------|------------------------------|
-----5s-7----------------------|-----5s-7--------------2--0---|
--0--------0-3--5--6-5-3-5-6-7-|--0--------0-3--5--3-0------3-|


     PM PM PM   PM PM PM   PM PM PM           PM PM PM PM PM PM      PM
     |--3--|    |--3--|    |--3--|
  E  S  S  S  S S  S  S  S S  S  S  S E     S T  T  T  T  T  T  S E  S  E
-----------------------------------------|---------------------------------|
-----------------------------------------|---------------------------------|
-----------------------------------------|---------------------------------|
--5-----------------------------------5--|--2-------------------2----------|
--5--2--2--2----2--2--2----2--2--2----5--|--2-2--2--2--2--2--2--2----2-----|
--3--0--0--0----0--0--0----0--0--0----3--|--0-0--0--0--0--0--0--0----0-----|


                           PM        PM     PM PM
  S S S S E  E   E  S S    S  Q    S S  E.  S  S  Q
------------------------|------------------------------|
------------------------|------------------------------|
--7---8---9-----12------|-------------------------5----|
--6---7---8-----11------|-------------------------4----|
--5---6---7-----10------|--2---------2------2--2--3----|
------------------------|--0---------0------0--0-------|


  PM        PM     PM PM         PM        PM     PM PM
  S  Q    S S  E.  S  S  Q       S  Q    S S  E.  S  S  Q
------------------------------|------------------------------|
------------------------------|------------------------------|
-------------------------5----|-------------------------5----|
-------------------------4----|-------------------------4----|
--2---------2------2--2--3----|--2---------2------2--2--3----|
--0---------0------0--0-------|--0---------0------0--0-------|


  PM        PM     PM PM         PM        PM     PM PM
  S  Q    S S  E.  S  S  Q       S  Q    S S  E.  S  S  Q
------------------------------|------------------------------|
------------------------------|------------------------------|
-------------------------5----|-------------------------5----|
-------------------------4----|-------------------------4----|
--2---------2------2--2--3----|--2---------2------2--2--3----|
--0---------0------0--0-------|--0---------0------0--0-------|


  PM        PM     PM PM
  S  Q    S S  E.  S  S  Q        E   E   E   E   E   E   E   E
------------------------------|----------------------------------|
------------------------------|----------------------------------|
-------------------------5----|--17--17--17--17--14--14--14--14--|
-------------------------4----|----------------------------------|
--2---------2------2--2--3----|--15--15--15--15--12--12--12--12--|
--0---------0------0--0-------|----------------------------------|


   E   E   E   E   E   E   E   E      E   E   E   E   E   E   E   E
----------------------------------|----------------------------------|
----------------------------------|----------------------------------|
--17--17--17--17--14--14--14--14--|--16--16--16--16--12--12--12--12--|
----------------------------------|----------------------------------|
--15--15--15--15--12--12--12--12--|--14--14--14--14--10--10--10--10--|
----------------------------------|----------------------------------|


   E   E   E   E   E   E   E   E      E   E   E   E   E   E   E   E
----------------------------------|----------------------------------|
----------------------------------|----------------------------------|
--16--16--16--16--12--12--12--12--|--14--14--14--14--10--10--10--10--|
----------------------------------|----------------------------------|
--14--14--14--14--10--10--10--10--|--12--12--12--12---8---8---8---8--|
----------------------------------|----------------------------------|


   E   E   E   E   E   E   E   E     E  E  E  E  E  E  E  E
----------------------------------|--------------------------|
----------------------------------|--------------------------|
--14--14--14--14--10--10--10--10--|--9--9--9--9--9--9--9--9--|
----------------------------------|--------------------------|
--12--12--12--12---8---8---8---8--|--7--7--7--7--7--7--7--7--|
----------------------------------|--------------------------|


   E   E   E   E   E   E   E   E
----------------------------------|
----------------------------------|
--12--12--12--12--14--14--14--14--|
----------------------------------|
--10--10--10--10--12--12--12--12--|
----------------------------------|


   S  S  S  S  S  S  S  S  S  S  S  S  S  S  S  S
--------------13----------------------17----------|
--------14-15----15-14----------14-15----15-14----|
--14-15----------------15-14-15----------------15-|
--------------------------------------------------|
--------------------------------------------------|
--------------------------------------------------|


   S  S  S  S  S  S  S  S  S  S  S  S  S  S  S  S
--------------18-17-15----------------------------|
--------14-15----------18-17-15-14----------------|
--14-15----------------------------15-14-12-14-15-|
--------------------------------------------------|
--------------------------------------------------|
--------------------------------------------------|


   S  S  S  S  S  S  S  S  S  S  S  S  S  S  S  S
--------------13----------------------17----------|
--------14-15----15-14----------14-15----15-14----|
--14-15----------------15-14-15----------------15-|
--------------------------------------------------|
--------------------------------------------------|
--------------------------------------------------|


   S  S  S  S  S  S  S  S  S  S  S  S  S  S  S  S
--------------18-17-15----------------------------|
--------14-15----------18-17-15-14----------------|
--14-15----------------------------15-14-12-14-15-|
--------------------------------------------------|
--------------------------------------------------|
--------------------------------------------------|


  T T  T    T  T T T  T T T  T  T T
  S S  S  S S  S S S  S S S  S  S S  S   S
-------------------------------------------|
-----------------8--------8----------------|
----9-17p-0---16---9-19-9---21-12-9-17s-19-|
--7---------5------------------------------|
-------------------------------------------|
-------------------------------------------|


  T T  T    T  T T T  T T T  T  T T
  S S  S  S S  S S S  S S S  S  S S  S   S
-------------------------------------------|
-----------------8--------8----------------|
----9-17p-0---16---9-19-9---21-12-9-17s-19-|
--7---------5------------------------------|
-------------------------------------------|
-------------------------------------------|


  T T  T T T  T T  T  T     T  T    T  T
  S S  S S S  S S  S  S  S  S  S  S S  S
-----------------------------------------|
----------------8-10-12p-0---------------|
------12-7-9-11---------------12p-0---11-|
----9----------------------10-------9----|
--7--------------------------------------|
-----------------------------------------|


  T T  T T T  T T  T  T T  T  T T  T  T
  S S  S S S  S S  S  S S  S  S S  S  S   S
------------------------8-10-12-------------|
----------------8-10-12---------7h-8-12s-13-|
------12-7-9-11-----------------------------|
----9---------------------------------------|
--7-----------------------------------------|
--------------------------------------------|


  T T  T T T  T T  T  T     T  T    T  T
  S S  S S S  S S  S  S  S  S  S  S S  S
-----------------------------------------|
----------------8-10-12p-0---------------|
------12-7-9-11---------------12p-0---11-|
----9----------------------10-------9----|
--7--------------------------------------|
-----------------------------------------|


  T T  T T T  T T  T  T T  T  T T  T  T
  S S  S S S  S S  S  S S  S  S S  S  S   S
------------------------8-10-12-------------|
----------------8-10-12---------7h-8-12s-13-|
------12-7-9-11-----------------------------|
----9---------------------------------------|
--7-----------------------------------------|
--------------------------------------------|


    S  S   S  S   S    S  S   S  S   S  S   S  S   S    S    S
----------------------------------------------------------------|
--(12)---(12)---(12)-(12)---(12)---(12)---(12)---(12)-(12)-(12)-|
---15-----15-----15---15-----15-----15-----15-----15---15---15--|
---14-----14-----14---14-----14-----14-----14-----14---14---14--|
---13-----13-----13---13-----13-----13-----13-----13---13---13--|
----------------------------------------------------------------|


  T T  T T T  T T  T  T     T  T    T  T
  S S  S S S  S S  S  S  S  S  S  S S  S
-----------------------------------------|
----------------8-10-12p-0---------------|
------12-7-9-11---------------12p-0---11-|
----9----------------------10-------9----|
--7--------------------------------------|
-----------------------------------------|


  T T  T T T  T T  T  T T  T  T T  T  T
  S S  S S S  S S  S  S S  S  S S  S  S   S
------------------------8-10-12-------------|
----------------8-10-12---------7h-8-12s-13-|
------12-7-9-11-----------------------------|
----9---------------------------------------|
--7-----------------------------------------|
--------------------------------------------|


  T T  T T T  T T  T  T     T  T    T  T
  S S  S S S  S S  S  S  S  S  S  S S  S
-----------------------------------------|
----------------8-10-12p-0---------------|
------12-7-9-11---------------12p-0---11-|
----9----------------------10-------9----|
--7--------------------------------------|
-----------------------------------------|


  T T  T T T  T T  T  T T  T  T T  T  T
  S S  S S S  S S  S  S S  S  S S  S  S   S
------------------------8-10-12-------------|
----------------8-10-12---------7h-8-12s-13-|
------12-7-9-11-----------------------------|
----9---------------------------------------|
--7-----------------------------------------|
--------------------------------------------|


    S  S   S  S   S    S  S   S  S   S  S   S  S   S    S
-----------------------------------------------------------|
--(12)---(12)---(12)-(12)---(12)---(12)---(12)---(12)-(12)-|
---15-----15-----15---15-----15-----15-----15-----15---15--|
---14-----14-----14---14-----14-----14-----14-----14---14--|
---13-----13-----13---13-----13-----13-----13-----13---13--|
-----------------------------------------------------------|


    S  S   S  S   S    S  S   S  S   S  S   S  S   S    S    S
----------------------------------------------------------------|
--(12)---(12)---(12)-(12)---(12)---(12)---(12)---(12)-(12)-(12)-|
---15-----15-----15---15-----15-----15-----15-----15---15---15--|
---14-----14-----14---14-----14-----14-----14-----14---14---14--|
---13-----13-----13---13-----13-----13-----13-----13---13---13--|
----------------------------------------------------------------|


               |---3--|     |---3--|
  E  E  S S E  S   S  S S S S   S  S  S S
------------------------------------------|
------------------------------------------|
------------------------------------------|
-----9--9-7----8h-11p-8-------------------|
------------------------9---9h-12p-9------|
--0----------------------------------12-0-|


               |---3--|      |---3---|
  E  E  S S E  S   S  S S S  S   S   S  S S
--------------------------------------------|
--------------------------------------------|
--------------------------------------------|
-----9--9-7----8h-11p-8-----11h-14p-11------|
------------------------9--------------13---|
--L---------------------------------------0-|


               |---3--|     |---3--|
  E  E  S S E  S   S  S S S S   S  S  S S
------------------------------------------|
------------------------------------------|
------------------------------------------|
-----9--9-7----8h-11p-8-------------------|
------------------------9---9h-12p-9------|
--L----------------------------------12-0-|


               |---3--|      |---3---|
  E  E  S S E  S   S  S S S  S   S   S  S S    S S  E  S S S   H          S
--------------------------------------------|-------------------------------|
--------------------------------------------|-------------------------------|
--------------------------------------------|-------------------------------|
-----9--9-7----8h-11p-8-----11h-14p-11------|----------------<>7b~--------L-|
------------------------9--------------13---|----5s-7-----------------------|
--L---------------------------------------0-|--L-------3-5-3----------------|


  E  S  E  S E  E  S S S S S S    E  S  E  S E  E  S S E  S S
-------------------------------|------------------------------|
-------------------------------|------------------------------|
-------------------------------|------------------------------|
-------------------------------|------------------------------|
-----5s-7----------------------|-----5s-7--------------2--0---|
--0--------0-3--5--6-5-3-5-6-7-|--0--------0-3--5--3-0------3-|


  E  S  E  S E  E  S S S S S S    E  S  E  S E  E  S S E  S S S
-------------------------------|--------------------------------|
-------------------------------|--------------------------------|
-------------------------------|--------------------------------|
-------------------------------|--------------------------------|
-----5s-7----------------------|-----5s-7--------------2--0-----|
--0--------0-3--5--6-5-3-5-6-7-|--0--------0-3--5--3-0------3-L-|


  E  E  S S S S E  E  E  E     E  E  S E.  H
----------------------------|-----------------------|
----------------------------|-----------------------|
--7-------7---7-7-----7-----|--7-------7------------|
--7--6----7---7-7--6--7--6--|--7--6----7------------|
--5--6----5---5-5--6--5--6--|--5--6----5------------|
-----4-------------4-----4--|-----4-----------------|


  E  E  S S S S E  E  E  E
----------------------------|
----------------------------|
--7-------7---7-7-----7-----|
--7--6----7---7-7--6--7--6--|
--5--6----5---5-5--6--5--6--|
-----4-------------4-----4--|

This part is impossible to hear
              T        T          T          T       T        T          T
              |---3--| |---3---|  |---3---|  |--3--| |---3--| |---3---|  |---3--
  E  E  S E.  S  S   S S   S   S  S   S   S  S  S  S S  S   S S   S   S  S   S
---------------------------------17p-10h-12-----------------------------17p-10h-|
-----------------------8h-10h-17------------------------------8h-10h-17---------|
--7-------7---7h-9h-17----------------------17p-9p-7-7h-9h-17-------------------|
--7--6----7---------------------------------------------------------------------|
--5--6----5---------------------------------------------------------------------|
-----4--------------------------------------------------------------------------|


  E  E  S S S S E  E  E  E     E  E  S E.  H
----------------------------|-----------------------|
----------------------------|-----------------------|
--7-------7---7-7-----7-----|--7-------7------------|
--7--6----7---7-7--6--7--6--|--7--6----7------------|
--5--6----5---5-5--6--5--6--|--5--6----5------------|
-----4-------------4-----4--|-----4-----------------|


  E  E  S S S S E  E  E  E
----------------------------|
----------------------------|
--7-------7---7-7-----7-----|
--7--6----7---7-7--6--7--6--|
--5--6----5---5-5--6--5--6--|
-----4-------------4-----4--|


               T        T         T          T        T        T         T
               |--3--|  |---3--|  |---3---|  |--3--|  |--3--|  |---3--|  |---3--
  E  E  S E.   S  S  S  S  S   S  S   S   S  S  S  S  S  S  S  S  S   S  S   S
---------------------------------17p-10h-12-----------------------------17p-10h-|
-----------------------17p-8h-10------------------------------17p-8h-10---------|
--7-------7---17p-7h-9----------------------17p-7h-9-17p-7h-9-------------------|
--7--6----7---------------------------------------------------------------------|
--5--6----5---------------------------------------------------------------------|
-----4--------------------------------------------------------------------------|


  T       T       T       T       T       T       T       T
  |--3--| |--3--| |--3--| |--3--| |--3--| |--3--| |--3--| |--3--|
  S  S  S S  S  S S  S  S S  S  S S  S  S S  S  S S  S  S S  S  S
--8p-7p-5---------------------------------------------------------|
----------8p-7p-5-------------------------------------------------|
------------------8p-7p-5---------8p-7p-5-------------------------|
--------------------------9p-7p-5---------9p-7p-5-----------------|
--------------------------------------------------9p-7p-5---------|
----------------------------------------------------------9p-7p-5-|


  E  E  E  E  E  E  E  E     W                   H         H
--------------------------|-------------------|---------------------|
--------------------------|-------------------|---------------------|
--------------------------|-------------------|---------------------|
--7--7--7--7--7--7--7--7--|--7----------------|--L--------/5--------|
--7--7--7--7--7--7--7--7--|--7----------------|--L------------------|
--5--5--5--5--5--5--5--5--|--5----------------|--L------------------|


                       PM PM  PM PM  PM PM PM PM  PM PM PM  PM
                       |---3--|  |---3--|  |---3--|  |---3--|
  H.           Q       E  E   E  E   E  E  E  E   E  E  E   E
--------------------|------------------------------------------|
--------------------|------------------------------------------|
--------------------|------------------------------------------|
--------------------|------------------------------------------|
--------------------|------------7-------------------7--8--10--|
--7------------8----|--7--8--10-----10--8--7--8--10------------|


                      |---3--|  |---3--|  |---3--|  |---3--|
  W                   E  E   E  E   E  E  E  E   E  E  E   E
-------------------|------------------------------------------|
-------------------|------------------------------------------|
-------------------|------------7-------------------7--9--10--|
--7----------------|--7--9--10-----10--9--7--9--10------------|
-------------------|------------------------------------------|
-------------------|------------------------------------------|


   H          H            H         H
------------------------|----------------------|
------------------------|----------------------|
------------------------|----------------------|
--10~--------12~--------|--9~--------7~--------|
------------------------|----------------------|
------------------------|----------------------|


   |---3---|   |---3---|   |---3---|   |---3---|
   E   E   E   E   E   E   E   E   E   E   E   E
--------------------------------------------------|
--------------------------------------------------|
--14--14--14--14--14--14--14--14--14--14--14--14--|
--------------------------------------------------|
--12--12--12--12--12--12--12--12--12--12--12--12--|
--------------------------------------------------|


   |---3---|   |---3---|   |---3---|   |---3---|
   E   E   E   E   E   E   E   E   E   E   E   E
--------------------------------------------------|
--------------------------------------------------|
--14--14--14--14--14--14--14--14--14--14--14--14--|
--------------------------------------------------|
--12--12--12--12--12--12--12--12--12--12--12--12--|
--------------------------------------------------|


   |---3---|   |---3---|   |---3---|   |---3---|
   E   E   E   E   E   E   E   E   E   E   E   E
--------------------------------------------------|
--------------------------------------------------|
--16--16--16--16--16--16--16--16--16--16--16--16--|
--------------------------------------------------|
--14--14--14--14--14--14--14--14--14--14--14--14--|
--------------------------------------------------|


   |---3---|   |---3---|  |--3--|  |--3--|
   E   E   E   E   E   E  E  E  E  E  E  E
--------------------------------------------|
--------------------------------------------|
--12--12--12--12--12--12--9--9--9--7--7--7--|
--------------------------------------------|
--10--10--10--10--10--10--7--7--7--5--5--5--|
--------------------------------------------|


   |---3---|   |---3---|   |---3---|   |---3---|
   E   E   E   E   E   E   E   E   E   E   E   E
--------------------------------------------------|
--------------------------------------------------|
--14--14--14--14--14--14--14--14--14--14--14--14--|
--------------------------------------------------|
--12--12--12--12--12--12--12--12--12--12--12--12--|
--------------------------------------------------|


   |---3---|   |---3---|   |---3---|   |---3---|
   E   E   E   E   E   E   E   E   E   E   E   E
--------------------------------------------------|
--------------------------------------------------|
--10--10--10--10--10--10--10--10--10--10--10--10--|
--------------------------------------------------|
---8---8---8---8---8---8---8---8---8---8---8---8--|
--------------------------------------------------|


   |---3---|   |---3---|   |---3---|   |---3---|
   E   E   E   E   E   E   E   E   E   E   E   E
--------------------------------------------------|
--------------------------------------------------|
--12--12--12--12--12--12--12--12--12--12--12--12--|
--------------------------------------------------|
--10--10--10--10--10--10--10--10--10--10--10--10--|
--------------------------------------------------|


   |---3---|   |---3---|   |---3---|   |---3---|
   E   E   E   E   E   E   E   E   E   E   E   E
--------------------------------------------------|
--------------------------------------------------|
--13--13--13--13--13--13--13--13--13--13--13--13--|
--------------------------------------------------|
--11--11--11--11--11--11--11--11--11--11--11--11--|
--------------------------------------------------|


  T T  T    T  T T T  T T T  T  T T
  S S  S  S S  S S S  S S S  S  S S  S   S
-------------------------------------------|
-----------------8--------8----------------|
----9-17p-0---16---9-19-9---21-12-9-17s-19-|
--7---------5------------------------------|
-------------------------------------------|
-------------------------------------------|


  T T  T    T  T T T  T T T  T  T T
  S S  S  S S  S S S  S S S  S  S S  S   S
-------------------------------------------|
-----------------8--------8----------------|
----9-17p-0---16---9-19-9---21-12-9-17s-19-|
--7---------5------------------------------|
-------------------------------------------|
-------------------------------------------|


  T T  T    T  T T T  T T T  T  T T
  S S  S  S S  S S S  S S S  S  S S  S   S
-------------------------------------------|
-----------------8--------8----------------|
----9-17p-0---16---9-19-9---21-12-9-17s-19-|
--7---------5------------------------------|
-------------------------------------------|
-------------------------------------------|


  T T  T    T  T T T  T T T  T  T T
  S S  S  S S  S S S  S S S  S  S S  S   S
-------------------------------------------|
-----------------8--------8----------------|
----9-17p-0---16---9-19-9---21-12-9-17s-19-|
--7---------5------------------------------|
-------------------------------------------|
-------------------------------------------|


  T T  T    T  T T T  T T T  T  T T
  S S  S  S S  S S S  S S S  S  S S  S   S
-------------------------------------------|
-----------------8--------8----------------|
----9-17p-0---16---9-19-9---21-12-9-17s-19-|
--7---------5------------------------------|
-------------------------------------------|
-------------------------------------------|


  T T  T    T  T T T  T T T  T  T T
  S S  S  S S  S S S  S S S  S  S S  S   S    E  E  E  E  E  E  E  E
-------------------------------------------|--------------------------|
-----------------8--------8----------------|--------------------------|
----9-17p-0---16---9-19-9---21-12-9-17s-19-|--------------------------|
--7---------5------------------------------|--3--3--3--3--3--3--3--3--|
-------------------------------------------|--3--3--3--3--3--3--3--3--|
-------------------------------------------|--1--1--1--1--1--1--1--1--|


  E  E  E  E  E  E  E  E     E  E  E  E  E  E  E  E
--------------------------|--------------------------|
--------------------------|--------------------------|
--5--5--5--5--5--5--5--5--|-----------------------9--|
--5--5--5--5--5--5--5--5--|--5--5--5--5--5--5--5-----|
--3--3--3--3--3--3--3--3--|--5--5--5--5--5--5--5--7--|
--------------------------|--3--3--3--3--3--3--3-----|


  E   E  E   E  E   E  E   E     W                   E  E  E  E  E  E  E  E
------------------------------|-------------------|--------------------------|
------------------------------|-------------------|--------------------------|
--9s--7--7s--5--5s--4--4s--5--|--5----------------|--5--5--5--5--5--5--5--5--|
------------------------------|-------------------|--5--5--5--5--5--5--5--5--|
--7s--5--5s--3--3s--2--2s--3--|--3----------------|--3--3--3--3--3--3--3--3--|
------------------------------|-------------------|--------------------------|


  E  E  E  E  E  E  E  E     E   E  E    E   E   E  Q
--------------------------|------------------------------|
--------------------------|------------------------------|
-----------------------9--|--9s--7--7s--10--10s--9--9----|
--5--5--5--5--5--5--5-----|------------------------------|
--5--5--5--5--5--5--5--7--|--7s--5--5s---8---8s--7--7----|
--3--3--3--3--3--3--3-----|------------------------------|


   S  S  S  S  S  S  S  S  S  S  S  S  S  S  S  S
--------------------------------------------------|
--------------------------------------------------|
--------------------------------------------------|
--------------------------------------------------|
-----------17-19-17----------------17-19-17-------|
--17-19-20----------20-19-17-19-20----------20-19-|


   S  S  S  S  S  S  S  S  S  S  S  S  S  S  S  S
--------------------------------------------------|
--------------------------------------------------|
-----------16-17-16----------------16-17-16-------|
-----17-19----------19-17----17-19----------19-17-|
--19----------------------19----------------------|
--------------------------------------------------|


   S  S  S  S  S  S  S  S  S  S  S  S  S  S  S  S
--------------------------------------------------|
--------------------------------------------------|
-----------------------------------14-------------|
--------14-15-14----------14-15-17----17-15-14----|
--15-17----------17-15-14----------------------17-|
--------------------------------------------------|


   S  S  S  S  S  S  S  S  S  S  S  S  S  S  S  S
-----------------------------------------------17-|
--------------------------------------17-18-20----|
--------16-17-19-17-16----------17-19-------------|
--17-19----------------19-17-19-------------------|
--------------------------------------------------|
--------------------------------------------------|


   S  S  S  S  S  S  S  S  S  S  S  S  S  S  S  S
--------------------------------------------------|
--------------------------------------------------|
--------------------------------------------------|
--------------------------------------------------|
-----------17-19-17----------------17-19-17-------|
--17-19-20----------20-19-17-19-20----------20-19-|


   S  S  S  S  S  S  S  S  S  S  S  S  S  S  S  S
--------------------------------------------------|
--------------------------------------------------|
-----------16-17-16----------------16-17-16-------|
-----17-19----------19-17----17-19----------19-17-|
--19----------------------19----------------------|
--------------------------------------------------|


   S  S  S  S  S  S  S  S  S  S  S  S  S  S  S  S
--------------------------------------------------|
--------------------------------------------------|
-----------------------------------14-------------|
--------14-15-14----------14-15-17----17-15-14----|
--15-17----------17-15-14----------------------17-|
--------------------------------------------------|


   S  S  S  S  S  S  S  S  S  S  S  S  S  S  S  S
-----------------------------------------------17-|
--------------------------------------17-18-20----|
--------16-17-19-17-16----------17-19-------------|
--17-19----------------19-17-19-------------------|
--------------------------------------------------|
--------------------------------------------------|


    S  S   S  S   S    S  S   S  S   S  S   S  S   S    S
-----------------------------------------------------------|
--(12)---(12)---(12)-(12)---(12)---(12)---(12)---(12)-(12)-|
---15-----15-----15---15-----15-----15-----15-----15---15--|
---14-----14-----14---14-----14-----14-----14-----14---14--|
---13-----13-----13---13-----13-----13-----13-----13---13--|
-----------------------------------------------------------|


    S  S   S  S   S    S  S   S  S   S  S   S  S   S    S    S
----------------------------------------------------------------|
--(12)---(12)---(12)-(12)---(12)---(12)---(12)---(12)-(12)-(12)-|
---15-----15-----15---15-----15-----15-----15-----15---15---15--|
---14-----14-----14---14-----14-----14-----14-----14---14---14--|
---13-----13-----13---13-----13-----13-----13-----13---13---13--|
----------------------------------------------------------------|


  W                   Q    E   E  E  E   E  E     E  E  E  E  E  E  E  E
-------------------|---------------------------|--------------------------|
-------------------|---------------------------|--------------------------|
-------------------|-------7s--9---------------|--------------------------|
-------------------|--2----7s--9-----5s--7-----|--7--L--8-----7--L--8--9--|
-------------------|--2----5s--7-----5s--7-----|--7--L--8-----7--L--8--9--|
-------------------|--0-----------0--3s--5--0--|--5--L--6--0--5--L--6--7--|


  Q    E   E  E  E   E  E     E  E  E  E  E  E  E  E
---------------------------|--------------------------|
---------------------------|--------------------------|
-------7s--9---------------|--------------------------|
--2----7s--9-----5s--7-----|--7--L--8-----9--L--7--5--|
--2----5s--7-----5s--7-----|--7--L--8-----9--L--7--5--|
--0-----------0--3s--5--0--|--5--L--6--0--7--L--5--3--|


  Q    E   E  E  E   E  E     E  E  E  E  E  E  E  E
---------------------------|--------------------------|
---------------------------|--------------------------|
-------7s--9---------------|--------------------------|
--2----7s--9-----5s--7-----|--7--L--8-----7--L--8--9--|
--2----5s--7-----5s--7-----|--7--L--8-----7--L--8--9--|
--0-----------0--3s--5--0--|--5--L--6--0--5--L--6--7--|


  Q    E   E  E  E   E  E     E  E  E  E  H           W
---------------------------|-----------------------|-------------------|
---------------------------|-----------------------|-------------------|
-------7s--9---------------|-----------------------|-------------------|
--2----7s--9-----5s--7-----|--7--L--8--------------|--2----------------|
--2----5s--7-----5s--7-----|--7--L--8--------------|--2----------------|
--0-----------0--3s--5--0--|--5--L--6--0-----------|--0----------------|


  W                   W
-------------------|-------------------||
-------------------|-------------------||
-------------------|-------------------||
--L----------------|--L----------------||
--L----------------|--L----------------||
--L----------------|--L----------------||


Login to Edit
Edit
YouTube
Video
View Sheet Music
Sheet
Music
Print
Speed:
Play Intro (login for the full song)
Play
Intro
Sustain:
Download midi (intro) ...

 Rate:
5 star
4 star
3 star
2 star
1 star
 

Comments (0)
 

No comments yet...

Comment on this tab   -   Unhelpful comments are exterminated.
  Your Guest Name:
      [Member Login]
  Comments:
 

Don't understand the tab?
See "How to Read Guitar Tabs".
Supported tags:
<i>italics</i>
<b>bold</b>
<u>underline</u>
<tab>tab lines</tab>
  Are you a spam robot?

If not, solve the equation:




[497 TabNabbers online]
©2020 TabNabber.com - Musician Supported Contact us Advertising Merchandise Privacy Policy Terms of Use facebook Twitter