TabNabber Tabs   Musician Supported
  Music Tabs
Espa˝ol English
Franšais Русский
Artist: # A B C D E F G H I J K L M N O P Q R S T U V W X Y Z
guitar

Guitar Tab, Chords



(0 from 0 votes)
4,644 Views, Last Update 6 years ago
by: cccc
guest
[Guest]
e---------14h15p14p12h14b--12-10-12------------------------------------------------------------|
b-12~----------------------------------12-12----12-0--12-0--12-10-0--10-0--10---7--7/8---------|
g--------------------------------------11h12----12-12-12-12-12-11-11-11-11-11---8--8/9---------|
d----------------------------------------------------------------------------------------------|
a----------------------------------------------------------------------------------------------|
e----------------------------------------------------------------------------------------------|

e----------------------------------------------------------------------------------------------|
b--------10b-----------------13-12-10-/12~----------------7-10-12/13\12------------------------|
g--9h12-------12p9--12p11p9------------------9-11-12b-9-8------11-11-11------------------------|
d----------------------------------------------------------------------------------------------|
a----------------------------------------------------------------------------------------------|
e----------------------------------------------------------------------------------------------|


Electric Solo (2) (99.98% sure this is right)
e----------------------------------------------------------------------------------------------|
b--------------12-10--------10-10-10h12--------------------------------------------------------|
g--12--9-11-12-------11-----------------11h12p11-9---------------------------------------------|
d-----------------------------------------------------12-9-12-9-12/14--------------------------|
a----------------------------------------------------------------------14p12p10-12p10h12b------|
e----------------------------------------------------------------------------------------------|

e----------------------------------10---12-----------------------------------------------------|
b--8-10-10-8-10b-----------10-10b~---10---12---------------------------------------------------|
g--------------------/9-12---------------------14-14p12p9-12-12h14-12--------------------------|
d----------------------------------------------------------------------------------------------|
a----------------------------------------------------------------------------------------------|
e----------------------------------------------------------------------------------------------|

e-------------------------------12-------------------------------------------------------------|
b-----------------------12h15p12---------------------------------------------------------------|
g------------------12h14----------14p12--------------------------------------------------------|
d-------------12h14--------------------14p12---------------------------------------------------|
a-----10h12h14------------------------------14p12p10--12-12h14~--------------------------------|
e---12----------------------------------------------12-----------------------------------------|


Login to Edit
Edit
YouTube
Video
View Sheet Music
Sheet
Music
Print
Speed:
Play Intro (login for the full song)
Play
Intro
Sustain:
Download midi (intro) ...

 Rate:
5 star
4 star
3 star
2 star
1 star
 

Comments (0)
 

No comments yet...

Comment on this tab   -   Unhelpful comments are exterminated.
  Your Guest Name:
      [Member Login]
  Comments:
 

Don't understand the tab?
See "How to Read Guitar Tabs".
Supported tags:
<i>italics</i>
<b>bold</b>
<u>underline</u>
<tab>tab lines</tab>
  Are you a spam robot?

If not, solve the equation:




[174 TabNabbers online]
©2020 TabNabber.com - Musician Supported Contact us Advertising Merchandise Privacy Policy Terms of Use facebook Twitter