TabNabber Tabs   Musician Supported
  Music Tabs
Espa˝ol English
Franšais Русский
Artist: # A B C D E F G H I J K L M N O P Q R S T U V W X Y Z
guitar

Guitar Tab, Chords



(0 from 0 votes)
2,966 Views, Last Update 3 years ago
by: Anonymous
guest
[Guest]
e|-10-10-10-10--10-10-12-10-|-15-15-15-15--15-15-14-15-|
B|-12-12-12-12--12-12-12-12-|-15-15-15-15--15-15-15-15-|
G|-12-12-12-12--12-12-12-12-|-14-14-14-14--14-14-14-14-|
D|--------------------------|--------------------------|
A|--------------------------|--------------------------|
E|--------------------------|--------------------------|

e|-10-10-10-10--10-10-12-10-|-15-15-15-15--15-14-12-14-|
B|-12-12-12-12--12-12-12-12-|-15-15-15-15--15-15-13-15-|
G|-12-12-12-12--12-12-12-12-|-14-14-14-14--14-14-12-14-|
D|--------------------------|--------------------------|
A|--------------------------|--------------------------|
E|--------------------------|--------------------------|

e|-10-10-10-10--10-10-12-10-|-15-15-15-15--15-15-14-15-|
B|-12-12-12-12--12-12-12-12-|-15-15-15-15--15-15-15-15-|
G|-12-12-12-12--12-12-12-12-|-14-14-14-14--14-14-14-14-|
D|--------------------------|--------------------------|
A|--------------------------|--------------------------|
E|--------------------------|--------------------------|

e|-10-10-10-10--10-10-12-10-|-15-15-15-15--15-14-12-14-|
B|-12-12-12-12--12-12-12-12-|-15-15-15-15--15-15-13-15-|
G|-12-12-12-12--12-12-12-12-|-14-14-14-14--14-14-12-14-|
D|--------------------------|--------------------------|
A|--------------------------|--------------------------|
E|--------------------------|--------------------------|

e|----------------------------|----------------------------|
B|----------------------------|----------------------------|
G|-11-12---12-11-9--------9-11|-11-9-----------------------|
D|-----------------12--12-----|------12-10--9---10-9-------|
A|----------------------------|---------------------12--10-|
E|----------------------------|----------------------------|

e|----------------------------|-----------------------------------|
B|----------------------------|-----------------------------------|
G|-11-12---12-12-12--12-12-12-|11-9-11--12--12-14--12--12-11-9-11-|
D|----------------------------|-----------------------------------|
A|----------------------------|-----------------------------------|
E|----------------------------|-----------------------------------|


Login to Edit
Edit
YouTube
Video
View Sheet Music
Sheet
Music
Print
Speed:
Play Intro (login for the full song)
Play
Intro
Sustain:
Download midi (intro) ...

 Rate:
5 star
4 star
3 star
2 star
1 star
 

Comments (0)
 

No comments yet...

Comment on this tab   -   Unhelpful comments are exterminated.
  Your Guest Name:
      [Member Login]
  Comments:
 

Don't understand the tab?
See "How to Read Guitar Tabs".
Supported tags:
<i>italics</i>
<b>bold</b>
<u>underline</u>
<tab>tab lines</tab>
  Are you a spam robot?

If not, solve the equation:




[292 TabNabbers online]
©2020 TabNabber.com - Musician Supported Contact us Advertising Merchandise Privacy Policy Terms of Use facebook Twitter