TabNabber Tabs   Musician Supported
  Music Tabs
Espa˝ol English
Franšais Русский
Artist: # A B C D E F G H I J K L M N O P Q R S T U V W X Y Z
guitar

Guitar Tab, Chords



(0 from 0 votes)
2,651 Views, Last Update 11 months ago
by: Anonymous
guest
[Guest]
E|-----------------|-------0---------|-----------------|-------0---------|
B|-------0-2-0-----|-----2---2-------|-------0-2-0-----|-----2---2-------|
G|-----2-------2---|---2-------2-L---|-----2-------2---|---2-------2-L---|
D|---2-----------2-|-0---------------|---2-----------2-|-0---------------|
A|-0---------------|-----------------|-0---------------|-----------------|
E|-----------------|-----------------|-----------------|-----------------|

E|-4-----------5---|-2-----------0-2-|-4---------------|---------------0-|
B|-----------------|-----2-----------|-------------0-2-|-----2-------2---|
G|-----2---------2-|---2---2---2-----|-----2-----------|---2---2---2-----|
D|---2---2---2-----|-0-------0-------|---2---2---2-----|-0-------0-------|
A|-0-------0-------|-----------------|-0-------0-------|-----------------|
E|-----------------|-----------------|-----------------|-----------------|

E|-3-----2---------|-----------------|-3---2-----------|-----------------|
B|---------3-----0-|-L-------0-------|-3-------3-----0-|-L---------------|
G|-----0-----0-2---|-----2---2-------|-0-----0---0-2---|-----2-------2---|
D|---0-------------|---0---0-0-------|---0-------------|---0---0---0-----|
A|-----------------|-----------------|-----------------|-----------------|
E|-3---------------|-3---------------|-3---------------|-3-------3---3---|

E|---------0-------|-----------------|-------------0-2-|-----------------|
B|-----0-2---2-0---|-------0-2-0-----|-3-----2---------|---3-----------2-|
G|---2-----------2-|-----2-------2---|-----4---2-------|-------4---4-4---|
D|-2---------------|---2-----------2-|---4-------4-----|-----4---4-------|
A|-0---------------|-0---------------|-2---------------|-2---------------|
E|-----------------|-----------------|-----------------|-----------------|

E|-----------2-----|-----------------|-----------------|-----------------|
B|-3---2-3-------3-|-2-----------0---|---------0-------|---------0-------|
G|-----------------|-2---------------|-------1---1-----|-------1---1-----|
D|---0---------0---|-2---------------|-----2-------2---|-----2-----------|
A|-----------------|-0---------------|---2-----------2-|---2---------2---|
E|-3-------3-------|-----------------|-0---------------|-0---------------|

E|-3-2-0---0---0-2-|---0-----5-------|-4-0-------------|-----------------|
B|-------3---3-----|-----------2-----|-----0-----------|-0---------------|
G|-----------------|-------2-----2---|-------1---------|---1-------------|
D|---------0-------|-----2---------2-|-----2---2-------|-----2---2-------|
A|-----------------|-0---------------|---2---2---------|---2-2-2-2-------|
E|-3---------------|-----------------|-0-------0-------|-0-------0-------|

E|-------0---------|-------0---------*|
B|---------0-------|---------0-------*|
G|-----1-----1-L---|-----1-----1-L---*|
D|---2-------------|---2-------------*|
A|-----------------|-----------------*|
E|-0---------------|-0---------------*|


Login to Edit
Edit
YouTube
Video
View Sheet Music
Sheet
Music
Print
Speed:
Play Intro (login for the full song)
Play
Intro
Sustain:
Download midi (intro) ...

 Rate:
5 star
4 star
3 star
2 star
1 star
 

Comments (1)
 

BA


Admin
[Admin]

10 months ago
Yang I love you man, can I have my 1000$ now?

Reply

Comment on this tab   -   Unhelpful comments are exterminated.
  Your Guest Name:
      [Member Login]
  Comments:
 

Don't understand the tab?
See "How to Read Guitar Tabs".
Supported tags:
<i>italics</i>
<b>bold</b>
<u>underline</u>
<tab>tab lines</tab>
  Are you a spam robot?

If not, solve the equation:




[121 TabNabbers online]
©2020 TabNabber.com - Musician Supported Contact us Advertising Merchandise Privacy Policy Terms of Use facebook Twitter