TabNabber Tabs   Musician Supported
  Music Tabs
Espa˝ol English
Franšais Русский
Artist: # A B C D E F G H I J K L M N O P Q R S T U V W X Y Z
guitar

Guitar Tab, Chords



(3.2 from 6 votes)
15,972 Views, Last Update 12 years ago
by: Anonymous
guest
[Guest]
e|-----------------------------------------------------------------------------------|
b|-----------------------------------------------------------------------------------|
g|--------------------------------------------7-6----------------------------5-5-4-4-|
d|--------------------------------------------7-6----------------------------5-5-4-4-|
a|--------------------------------------------5-4----------------------------3-3-2-2-|
E|--0-0-0--2-1-0--5-2-1--2-1-0--0-0-0--2-1-0------0-0-0--2-1-0--5-2-1--2-1-0---------|


e|-------------------------------------------------------------------------|
b|-------------------------------------------------------------------------|
g|-9--9-9--11--12--11--7--9--9-9-9--11--12--14----17--17-17-17--19--17--16-|
d|-------------------------------------------------------------------------|
a|-------------------------------------------------------------------------|
E|-------------------------------------------------------------------------|

e|------------------------------------------------------|
b|------------------------------------------------------|
g|-14-12-11-12-14-16------------------------------------|
d|--------------------10-10--9-9------------------------|
a|--------------------10-10--9-9------------------------|
E|--------------------8--8---7-7------------------------|

e|-------------------------------------------------------------|
b|-------------------------------------------------------------|
g|-9--9-9--11-12-11-7-9--9-9-9--11-12-14----17-171717-19-21-19-|
d|-------------------------------------------------------------|
a|-------------------------------------------------------------|
E|-------------------------------------------------------------|

e|-----------------------------------------------------|
b|-----------------------------------------------------|
g|-17-14-19-16-----------------------------------------|
d|------------------10-10--12-12-----------------------|
a|------------------10-10--12-12-----------------------|
E|------------------8--8---10-10-----------------------|

Part 2
e|----------------------------------------------------------------|
b|----------------------------------------------------------------|
g|-4-4-2-4--4-4-2-4--4-4-2-4--4-4-2-2--2-5--2-5--2-5-5--2-5-------|
d|--2--------2--------2-------------------------------------------|
a|----------------------------------------------------------------|
E|----------------------------------------------------------------|

e|------------------------------------------------------|
b|------------------------------------------------------|
g|-4-7-4-7/9--9-9-9-7-9-12-9-12/16-16161616-16-1414-----|
d|------------------------------------------------------|
a|------------------------------------------------------|
E|------------------------------------------------------|

Part 3
e|-----------------------------------------------------|
b|-5--5-8-10/15-11-10-8-10--17-15-13-12--8-10-8-10-12--|
g|-----------------------------------------------------|
d|-----------------------------------------------------|
a|-----------------------------------------------------|
E|-----------------------------------------------------|

e|-----------------------------------------------------|
b|-5--5-8-10/15-11-10-8-10--17-15-13-12-10-8--17-17-17-|
g|-----------------------------------------------------|
d|-----------------------------------------------------|
a|-----------------------------------------------------|
E|-----------------------------------------------------|


Login to Edit
Edit
YouTube
Video
View Sheet Music
Sheet
Music
Print
Speed:
Play Intro (login for the full song)
Play
Intro
Sustain:
Download midi (intro) ...

6 Votes
5 star: 50%  (3)
4 star:  (0)
3 star:  (0)
2 star: 17%  (1)
1 star: 33%  (2)
0 star:  (0)
 Rate:
5 star
4 star
3 star
2 star
1 star
 

Comments (2)
 

Twanjoker
[Guest]
11 years ago
AWESOME!


Reply
Anonymous
[Guest]
12 years ago
a

Reply

Comment on this tab   -   Unhelpful comments are exterminated.
  Your Guest Name:
      [Member Login]
  Comments:
 

Don't understand the tab?
See "How to Read Guitar Tabs".
Supported tags:
<i>italics</i>
<b>bold</b>
<u>underline</u>
<tab>tab lines</tab>
  Are you a spam robot?

If not, solve the equation:




[493 TabNabbers online]
©2020 TabNabber.com - Musician Supported Contact us Advertising Merchandise Privacy Policy Terms of Use facebook Twitter