TabNabber Tabs   Musician Supported
  Music Tabs
Espa˝ol English
Franšais Русский
Artist: # A B C D E F G H I J K L M N O P Q R S T U V W X Y Z
guitar

Guitar Tab, Chords



(0 from 0 votes)
6,327 Views, Last Update 12 years ago
by: suck
guest
[Guest]
As vice president, I pledge to play this song everywhere I go.

e|-------------------------------------0---|---------------------------------------------5---
b|------------1----------------2-----------|----------------1----------------2----------5---
g|-------------2----------------2----------|-----------------2----------------2--------2---
d|--------------2----------------2---------|------------------2----------------2------2---
a|0-2-3----------3----------------0--------|----0-2-3----------3----------------0---------
e|-----------------------------------------|----------------------------------------------



e|5-3-1-0-|5-3-1-0-|5-3-1-0-|3-3-1-0-|
b|-3-3-3--|-3-3-3--|-3-3-3--|-1-1-1--|
g|-------2|-------2|-------2|-------2|
d|--------|--------|--------|--------|
a|--------|--------|--------|--------|
e|--------|--------|--------|--------|


e|5-3-1-0-|5-3-1-0-|5-3-1-0-|3-3-1-0-|
b|-3-3-3-1|-3-3-3-1|-3-3-3-1|-1-1-1-1|
g|--------|--------|--------|--------|
d|--------|--------|--------|--------|
a|--------|--------|--------|--------|
e|--------|--------|--------|--------|


e|5-3-1-0-|5-3-1-0-|5-3-1-0-|3-3-1-0-|
b|33-3-3--|33-3-3--|33-3-3--|11-1-1--|
g|2------2|2------2|2------2|0------2|
d|--------|--------|--------|--------|
a|--------|--------|--------|--------|
e|--------|--------|--------|--------|

I'm Joe Biden and I approve this tab.


Login to Edit
Edit
YouTube
Video
View Sheet Music
Sheet
Music
Print
Speed:
Play Intro (login for the full song)
Play
Intro
Sustain:
Download midi (intro) ...

 Rate:
5 star
4 star
3 star
2 star
1 star
 

Comments (0)
 

No comments yet...

Comment on this tab   -   Unhelpful comments are exterminated.
  Your Guest Name:
      [Member Login]
  Comments:
 

Don't understand the tab?
See "How to Read Guitar Tabs".
Supported tags:
<i>italics</i>
<b>bold</b>
<u>underline</u>
<tab>tab lines</tab>
  Are you a spam robot?

If not, solve the equation:




[469 TabNabbers online]
©2020 TabNabber.com - Musician Supported Contact us Advertising Merchandise Privacy Policy Terms of Use facebook Twitter